  0
SECTION
  2
HEADER
  9
$ACADVER
  1
AC1027
  9
$HANDSEED
  5
F0001
  0
ENDSEC
  0
SECTION
  2
TABLES
  0
TABLE
  2
VPORT
  5
EEEE1
330
0
100
AcDbSymbolTable
 70
     1
  0
VPORT
  5
EEEEB
330
EEEE1
100
AcDbSymbolTableRecord
100
AcDbViewportTableRecord
  2
*ACTIVE
 70
     0
  0
ENDTAB
  0
TABLE
  2
LTYPE
  5
5
330
0
100
AcDbSymbolTable
 70
     4
  0
LTYPE
  5
14
330
5
100
AcDbSymbolTableRecord
100
AcDbLinetypeTableRecord
  2
ByBlock
 70
     0
  3

 72
    65
 73
     0
 40
0.0
  0
LTYPE
  5
15
330
5
100
AcDbSymbolTableRecord
100
AcDbLinetypeTableRecord
  2
ByLayer
 70
     0
  3

 72
    65
 73
     0
 40
0.0
  0
LTYPE
  5
16
330
5
100
AcDbSymbolTableRecord
100
AcDbLinetypeTableRecord
  2
Continuous
 70
     0
  3
Solid line
 72
    65
 73
     0
 40
0.0
  0
ENDTAB
  0
TABLE
  2
LAYER
  5
2
330
0
100
AcDbSymbolTable
 70
    10
  0
LAYER
  5
10
330
2
100
AcDbSymbolTableRecord
100
AcDbLayerTableRecord
  2
0
 70
     0
 62
     7
  6
Continuous
370
    -3
390
F
347
EE
348
0
  0
ENDTAB
  0
TABLE
  2
STYLE
  5
EEEE9
330
0
100
AcDbSymbolTable
 70
     3
  0
STYLE
  5
EEEF2
330
EEEE9
100
AcDbSymbolTableRecord
100
AcDbTextStyleTableRecord
  2
STANDARD
 70
     0
 40
0.0
 41
1.0
 50
0.0
 71
     0
 42
0.2
  3
txt
  4

  0
ENDTAB
  0
TABLE
  2
VIEW
  5
EEEE3
100
AcDbSymbolTable
  0
ENDTAB
  0
TABLE
  2
UCS
  5
EEEE2
100
AcDbSymbolTable
  0
ENDTAB
  0
TABLE
  2
APPID
  5
EEEE5
330
0
100
AcDbSymbolTable
 70
    1
  0
APPID
  5
EEEF3
330
EEEE5
100
AcDbSymbolTableRecord
100
AcDbRegAppTableRecord
  2
ACAD
 70
     0
  0
ENDTAB
  0
TABLE
  2
DIMSTYLE
  5
EEEE6
330
0
100
AcDbSymbolTable
 70
     2
100
AcDbDimStyleTable
 71
     0
  0
DIMSTYLE
105
EEEF4
330
EEEE6
100
AcDbSymbolTableRecord
100
AcDbDimStyleTableRecord
  2
STANDARD
 70
     0
279
     2
340
EEEF2
  0
ENDTAB
  0
TABLE
  2
BLOCK_RECORD
  5
EEEE7
330
0
100
AcDbSymbolTable
 70
     3
  0
BLOCK_RECORD
  5
EEEEE
330
EEEE7
100
AcDbSymbolTableRecord
100
AcDbBlockTableRecord
  2
*Model_Space
340
EEEEA
 70
     0
280
     1
281
     0
  0
BLOCK_RECORD
  5
EEEF6
330
EEEE7
100
AcDbSymbolTableRecord
100
AcDbBlockTableRecord
  2
*Paper_Space
340
EEEF5
 70
     0
280
     1
281
     0
  0
ENDTAB
  0
ENDSEC
  0
SECTION
  2
BLOCKS
  0
BLOCK
  5
EEEED
330
EEEEE
100
AcDbEntity
  8
0
100
AcDbBlockBegin
  2
*Model_Space
 70
     0
 10
0.0
 20
0.0
 30
0.0
  3
*Model_Space
  1

  0
ENDBLK
  5
EEEEC
330
EEEEE
100
AcDbEntity
  8
0
100
AcDbBlockEnd
  0
BLOCK
  5
EEEF7
330
EEEF6
100
AcDbEntity
 67
     1
  8
0
100
AcDbBlockBegin
  2
*Paper_Space
 70
     0
 10
0.0
 20
0.0
 30
0.0
  3
*Paper_Space
  1

  0
ENDBLK
  5
EEEF8
330
EEEF6
100
AcDbEntity
 67
     1
  8
0
100
AcDbBlockEnd
  0
ENDSEC
  0
SECTION
  2
ENTITIES
  0
POINT
  5
1EF
330
1F
100
AcDbEntity
  8
0
100
AcDbPoint
 10
4.0
 20
4.0
 30
0.0
  0
LINE
  5
1F0
330
1F
100
AcDbEntity
  8
0
100
AcDbLine
 10
0.0
 20
0.0
 30
0.0
 11
1.0
 21
1.0
 31
0.0
  0
LWPOLYLINE
  5
1F1
330
1F
100
AcDbEntity
  8
0
100
AcDbPolyline
 90
        3
 70
     1
 43
0.0
 10
1.0
 20
1.0
 10
2.0
 20
1.0
 10
1.0
 20
2.0
  0
POLYLINE
  5
1F2
330
1F
100
AcDbEntity
  8
0
100
AcDb3dPolyline
 66
     1
 10
0.0
 20
0.0
 30
0.0
 70
     9
  0
VERTEX
  5
1F3
330
1F2
100
AcDbEntity
  8
0
100
AcDbVertex
100
AcDb3dPolylineVertex
 10
1.0
 20
1.0
 30
0.0
 70
    32
  0
VERTEX
  5
1F4
330
1F2
100
AcDbEntity
  8
0
100
AcDbVertex
100
AcDb3dPolylineVertex
 10
1.0
 20
2.0
 30
0.0
 70
    32
  0
VERTEX
  5
1F5
330
1F2
100
AcDbEntity
  8
0
100
AcDbVertex
100
AcDb3dPolylineVertex
 10
2.0
 20
2.0
 30
0.0
 70
    32
  0
SEQEND
  5
1F6
330
1F2
100
AcDbEntity
  8
0
  0
CIRCLE
  5
1F7
330
1F
100
AcDbEntity
  8
0
100
AcDbCircle
 10
4.0
 20
4.0
 30
0.0
 40
2.0
  0
ELLIPSE
  5
1F8
330
1F
100
AcDbEntity
  8
0
100
AcDbEllipse
 10
4.0
 20
4.0
 30
0.0
 11
-2.0
 21
0.0
 31
0.0
210
0.0
220
0.0
230
1.0
 40
0.5
 41
0.0
 42
6.283185307179586
  0
ARC
  5
1F9
330
1F
100
AcDbEntity
  8
0
100
AcDbCircle
 10
2.5
 20
2.5
 30
0.0
 40
0.7071067811865476
100
AcDbArc
 50
315.0
 51
225.0000000000001
  0
3DFACE
  5
1FA
330
1F
100
AcDbEntity
  8
0
100
AcDbFace
 10
1.0
 20
2.0
 30
0.0
 11
1.0
 21
3.0
 31
0.0
 12
2.0
 22
3.0
 32
0.0
 13
2.0
 23
2.0
 33
0.0
  0
SOLID
  5
1FB
330
1F
100
AcDbEntity
  8
0
100
AcDbTrace
 10
3.0
 20
4.0
 30
0.0
 11
4.0
 21
4.0
 31
0.0
 12
3.0
 22
3.0
 32
0.0
 13
4.0
 23
3.0
 33
0.0
  0
HATCH
  5
1FD
330
1F
100
AcDbEntity
  8
0
100
AcDbHatch
 10
0.0
 20
0.0
 30
0.0
210
0.0
220
0.0
230
1.0
  2
ANGLE
 70
     0
 71
     0
 91
        1
 92
        1
 93
        4
 72
     1
 10
8.0
 20
8.0
 11
9.0
 21
8.0
 72
     1
 10
9.0
 20
8.0
 11
9.0
 21
9.0
 72
     1
 10
9.0
 20
9.0
 11
8.0
 21
9.0
 72
     1
 10
8.0
 20
9.0
 11
8.0
 21
8.0
 97
        0
 75
     0
 76
     1
 52
0.0
 41
1.0
 77
     0
 78
     2
 53
0.0
 43
0.0
 44
0.0
 45
0.0
 46
6.985
 79
     2
 49
5.08
 49
-1.905
 53
90.0
 43
0.0
 44
0.0
 45
-6.985
 46
0.0000000000000004
 79
     2
 49
5.08
 49
-1.905
 98
        1
 10
0.0
 20
0.0
1001
ACAD
1010
0.0
1020
0.0
1030
0.0
  0
SPLINE
  5
200
330
1F
100
AcDbEntity
  8
0
100
AcDbSpline
210
0.0
220
0.0
230
1.0
 70
  1080
 71
     3
 72
     9
 73
     5
 74
     3
 42
0.0000000001
 43
0.0000000001
 44
0.0000000001
 40
0.0
 40
0.0
 40
0.0
 40
0.0
 40
2.82842712474619
 40
8.485281374238571
 40
8.485281374238571
 40
8.485281374238571
 40
8.485281374238571
 10
2.0
 20
2.0
 30
0.0
 10
2.666666666666666
 20
2.666666666666666
 30
0.0
 10
4.666666666666666
 20
4.666666666666666
 30
0.0
 10
6.666666666666666
 20
6.666666666666666
 30
0.0
 10
8.0
 20
8.0
 30
0.0
 11
2.0
 21
2.0
 31
0.0
 11
4.0
 21
4.0
 31
0.0
 11
8.0
 21
8.0
 31
0.0
  0
SPLINE
  5
201
330
1F
100
AcDbEntity
  8
0
100
AcDbSpline
210
0.0
220
0.0
230
1.0
 70
  1064
 71
     3
 72
     9
 73
     5
 74
     3
 42
0.0000000001
 43
0.0000000001
 44
0.0000000001
 40
0.0
 40
0.0
 40
0.0
 40
0.0
 40
6.082762530298219
 40
12.16552506059644
 40
12.16552506059644
 40
12.16552506059644
 40
12.16552506059644
 10
8.0
 20
1.0
 30
0.0
 10
5.583333333333333
 20
0.9166666666666666
 30
0.0
 10
0.7500000000000002
 20
0.75
 30
0.0
 10
0.9166666666666666
 20
5.583333333333332
 30
0.0
 10
1.0
 20
8.0
 30
0.0
 11
8.0
 21
1.0
 31
0.0
 11
2.0
 21
2.0
 31
0.0
 11
1.0
 21
8.0
 31
0.0
  0
TEXT
  5
202
330
1F
100
AcDbEntity
  8
0
100
AcDbText
 10
7.0
 20
7.0
 30
0.0
 40
1.0
  1
Text
100
AcDbText
  0
POINT
  5
203
330
1F
100
AcDbEntity
  8
0
100
AcDbPoint
 10
-4.0
 20
4.0
 30
-0.0000000000000005
210
0.0000000000000001
220
0.0
230
-1.0
  0
LINE
  5
204
330
1F
100
AcDbEntity
  8
0
100
AcDbLine
 10
0.0
 20
0.0
 30
0.0
 11
-1.0
 21
1.0
 31
-0.0000000000000001
210
0.0000000000000001
220
0.0
230
-1.0
  0
LWPOLYLINE
  5
205
330
1F
100
AcDbEntity
  8
0
100
AcDbPolyline
 90
        3
 70
     1
 43
0.0
 10
1.0
 20
1.0
 10
2.0
 20
1.0
 10
1.0
 20
2.0
210
0.0000000000000001
220
0.0
230
-1.0
  0
POLYLINE
  5
206
330
1F
100
AcDbEntity
  8
0
100
AcDb3dPolyline
 66
     1
 10
0.0
 20
0.0
 30
0.0
 70
     9
  0
VERTEX
  5
207
330
206
100
AcDbEntity
  8
0
100
AcDbVertex
100
AcDb3dPolylineVertex
 10
-1.0
 20
1.0
 30
-0.0000000000000001
 70
    32
  0
VERTEX
  5
208
330
206
100
AcDbEntity
  8
0
100
AcDbVertex
100
AcDb3dPolylineVertex
 10
-1.0
 20
2.0
 30
-0.0000000000000001
 70
    32
  0
VERTEX
  5
209
330
206
100
AcDbEntity
  8
0
100
AcDbVertex
100
AcDb3dPolylineVertex
 10
-2.0
 20
2.0
 30
-0.0000000000000002
 70
    32
  0
SEQEND
  5
20A
330
206
100
AcDbEntity
  8
0
  0
CIRCLE
  5
20B
330
1F
100
AcDbEntity
  8
0
100
AcDbCircle
 10
4.0
 20
4.0
 30
0.0
 40
2.0
210
0.0000000000000001
220
0.0
230
-1.0
  0
ELLIPSE
  5
20C
330
1F
100
AcDbEntity
  8
0
100
AcDbEllipse
 10
-4.0
 20
4.0
 30
-0.0000000000000005
 11
2.0
 21
0.0
 31
0.0000000000000002
210
0.0000000000000001
220
0.0
230
-1.0
 40
0.5
 41
0.0
 42
6.283185307179586
  0
ARC
  5
20D
330
1F
100
AcDbEntity
  8
0
100
AcDbCircle
 10
2.5
 20
2.5
 30
0.0
 40
0.7071067811865476
210
0.0000000000000001
220
0.0
230
-1.0
100
AcDbArc
 50
315.0
 51
225.0000000000001
  0
3DFACE
  5
20E
330
1F
100
AcDbEntity
  8
0
100
AcDbFace
 10
-1.0
 20
2.0
 30
-0.0000000000000001
 11
-1.0
 21
3.0
 31
-0.0000000000000001
 12
-2.0
 22
3.0
 32
-0.0000000000000002
 13
-2.0
 23
2.0
 33
-0.0000000000000002
  0
SOLID
  5
20F
330
1F
100
AcDbEntity
  8
0
100
AcDbTrace
 10
3.0
 20
4.0
 30
0.0
 11
4.0
 21
4.0
 31
0.0
 12
3.0
 22
3.0
 32
0.0
 13
4.0
 23
3.0
 33
0.0
210
0.0000000000000001
220
0.0
230
-1.0
  0
HATCH
  5
211
330
1F
100
AcDbEntity
  8
0
100
AcDbHatch
 10
0.0
 20
0.0
 30
0.0
210
0.0000000000000001
220
0.0
230
-1.0
  2
ANGLE
 70
     0
 71
     0
 91
        1
 92
        1
 93
        4
 72
     1
 10
8.0
 20
8.0
 11
9.0
 21
8.0
 72
     1
 10
9.0
 20
8.0
 11
9.0
 21
9.0
 72
     1
 10
9.0
 20
9.0
 11
8.0
 21
9.0
 72
     1
 10
8.0
 20
9.0
 11
8.0
 21
8.0
 97
        0
 75
     0
 76
     1
 52
0.0
 41
1.0
 77
     0
 78
     2
 53
0.0
 43
0.0
 44
0.0
 45
0.0
 46
6.985
 79
     2
 49
5.08
 49
-1.905
 53
90.0
 43
0.0
 44
0.0
 45
-6.985
 46
0.0000000000000004
 79
     2
 49
5.08
 49
-1.905
 98
        1
 10
0.0
 20
0.0
1001
ACAD
1010
0.0
1020
0.0
1030
0.0
  0
SPLINE
  5
212
330
1F
100
AcDbEntity
  8
0
100
AcDbSpline
210
0.0
220
0.0
230
1.0
 70
  1080
 71
     3
 72
     9
 73
     5
 74
     3
 42
0.0000000001
 43
0.0000000001
 44
0.0000000001
 40
0.0
 40
0.0
 40
0.0
 40
0.0
 40
2.82842712474619
 40
8.485281374238571
 40
8.485281374238571
 40
8.485281374238571
 40
8.485281374238571
 10
-2.0
 20
2.0
 30
-0.0000000000000002
 10
-2.666666666666666
 20
2.666666666666666
 30
-0.0000000000000003
 10
-4.666666666666666
 20
4.666666666666666
 30
-0.0000000000000006
 10
-6.666666666666666
 20
6.666666666666666
 30
-0.0000000000000008
 10
-8.0
 20
8.0
 30
-0.000000000000001
 11
-2.0
 21
2.0
 31
-0.0000000000000002
 11
-4.0
 21
4.0
 31
-0.0000000000000005
 11
-8.0
 21
8.0
 31
-0.000000000000001
  0
SPLINE
  5
213
330
1F
100
AcDbEntity
  8
0
100
AcDbSpline
210
0.0
220
0.0
230
1.0
 70
  1064
 71
     3
 72
     9
 73
     5
 74
     3
 42
0.0000000001
 43
0.0000000001
 44
0.0000000001
 40
0.0
 40
0.0
 40
0.0
 40
0.0
 40
6.082762530298219
 40
12.16552506059644
 40
12.16552506059644
 40
12.16552506059644
 40
12.16552506059644
 10
-8.0
 20
1.0
 30
-0.000000000000001
 10
-5.583333333333333
 20
0.9166666666666666
 30
-0.0000000000000007
 10
-0.7500000000000002
 20
0.75
 30
-0.0000000000000001
 10
-0.9166666666666666
 20
5.583333333333332
 30
-0.0000000000000001
 10
-1.0
 20
8.0
 30
-0.0000000000000001
 11
-8.0
 21
1.0
 31
-0.000000000000001
 11
-2.0
 21
2.0
 31
-0.0000000000000002
 11
-1.0
 21
8.0
 31
-0.0000000000000001
  0
TEXT
  5
214
330
1F
100
AcDbEntity
  8
0
100
AcDbText
 10
7.0
 20
7.0
 30
0.0
 40
1.0
  1
Text
210
0.0000000000000001
220
0.0
230
-1.0
100
AcDbText
  0
POINT
  5
215
330
1F
100
AcDbEntity
  8
0
100
AcDbPoint
 10
-4.0
 20
-4.0
 30
-0.000000000000001
 50
180.0
  0
LINE
  5
216
330
1F
100
AcDbEntity
  8
0
100
AcDbLine
 10
0.0
 20
0.0
 30
-0.0000000000000002
 11
-1.0
 21
-1.0
 31
-0.0000000000000005
  0
LWPOLYLINE
  5
217
330
1F
100
AcDbEntity
  8
0
100
AcDbPolyline
 90
        3
 70
     1
 43
0.0
 10
-1.0
 20
-1.0
 10
-2.0
 20
-1.0
 10
-1.0
 20
-2.0
  0
POLYLINE
  5
218
330
1F
100
AcDbEntity
  8
0
100
AcDb3dPolyline
 66
     1
 10
0.0
 20
0.0
 30
0.0
 70
     9
  0
VERTEX
  5
219
330
218
100
AcDbEntity
  8
0
100
AcDbVertex
100
AcDb3dPolylineVertex
 10
-1.0
 20
-1.0
 30
-0.0000000000000002
 70
    32
  0
VERTEX
  5
21A
330
218
100
AcDbEntity
  8
0
100
AcDbVertex
100
AcDb3dPolylineVertex
 10
-1.0
 20
-2.0
 30
-0.0000000000000004
 70
    32
  0
VERTEX
  5
21B
330
218
100
AcDbEntity
  8
0
100
AcDbVertex
100
AcDb3dPolylineVertex
 10
-2.0
 20
-2.0
 30
-0.0000000000000005
 70
    32
  0
SEQEND
  5
21C
330
218
100
AcDbEntity
  8
0
  0
CIRCLE
  5
21D
330
1F
100
AcDbEntity
  8
0
100
AcDbCircle
 10
-4.0
 20
-4.0
 30
0.0
 40
2.0
  0
ELLIPSE
  5
21E
330
1F
100
AcDbEntity
  8
0
100
AcDbEllipse
 10
-4.0
 20
-4.0
 30
-0.000000000000001
 11
2.0
 21
0.0
 31
0.0000000000000002
210
-0.0000000000000001
220
-0.0000000000000001
230
1.0
 40
0.5
 41
0.0
 42
6.283185307179586
  0
ARC
  5
21F
330
1F
100
AcDbEntity
  8
0
100
AcDbCircle
 10
-2.5
 20
-2.5
 30
0.0
 40
0.7071067811865476
100
AcDbArc
 50
135.0
 51
45.0
  0
3DFACE
  5
220
330
1F
100
AcDbEntity
  8
0
100
AcDbFace
 10
-1.0
 20
-2.0
 30
-0.0000000000000004
 11
-1.0
 21
-3.0
 31
-0.0000000000000005
 12
-2.0
 22
-3.0
 32
-0.0000000000000006
 13
-2.0
 23
-2.0
 33
-0.0000000000000005
  0
SOLID
  5
221
330
1F
100
AcDbEntity
  8
0
100
AcDbTrace
 10
-3.0
 20
-4.0
 30
0.0
 11
-4.0
 21
-4.0
 31
0.0
 12
-3.0
 22
-3.0
 32
0.0
 13
-4.0
 23
-3.0
 33
0.0
  0
HATCH
  5
223
330
1F
100
AcDbEntity
  8
0
100
AcDbHatch
 10
0.0
 20
0.0
 30
0.0
210
-0.0000000000000001
220
-0.0000000000000001
230
1.0
  2
ANGLE
 70
     0
 71
     0
 91
        1
 92
        1
 93
        4
 72
     1
 10
-8.0
 20
-8.0
 11
-9.0
 21
-8.0
 72
     1
 10
-9.0
 20
-8.0
 11
-9.0
 21
-9.0
 72
     1
 10
-9.0
 20
-9.0
 11
-8.0
 21
-9.0
 72
     1
 10
-8.0
 20
-9.0
 11
-8.0
 21
-8.0
 97
        0
 75
     0
 76
     1
 52
0.0
 41
1.0
 77
     0
 78
     2
 53
180.0
 43
0.0
 44
0.0
 45
-0.0000000000000009
 46
-6.985
 79
     2
 49
5.08
 49
-1.905
 53
270.0
 43
0.0
 44
0.0
 45
6.985
 46
-0.0000000000000013
 79
     2
 49
5.08
 49
-1.905
 98
        1
 10
0.0
 20
0.0
1001
ACAD
1010
0.0
1020
0.0
1030
0.0
  0
SPLINE
  5
224
330
1F
100
AcDbEntity
  8
0
100
AcDbSpline
210
0.0
220
0.0
230
1.0
 70
  1080
 71
     3
 72
     9
 73
     5
 74
     3
 42
0.0000000001
 43
0.0000000001
 44
0.0000000001
 40
0.0
 40
0.0
 40
0.0
 40
0.0
 40
2.82842712474619
 40
8.485281374238571
 40
8.485281374238571
 40
8.485281374238571
 40
8.485281374238571
 10
-2.0
 20
-2.0
 30
-0.0000000000000005
 10
-2.666666666666666
 20
-2.666666666666666
 30
-0.0000000000000007
 10
-4.666666666666666
 20
-4.666666666666666
 30
-0.0000000000000011
 10
-6.666666666666666
 20
-6.666666666666666
 30
-0.0000000000000016
 10
-8.0
 20
-8.0
 30
-0.000000000000002
 11
-2.0
 21
-2.0
 31
-0.0000000000000005
 11
-4.0
 21
-4.0
 31
-0.000000000000001
 11
-8.0
 21
-8.0
 31
-0.000000000000002
  0
SPLINE
  5
225
330
1F
100
AcDbEntity
  8
0
100
AcDbSpline
210
0.0
220
0.0
230
1.0
 70
  1064
 71
     3
 72
     9
 73
     5
 74
     3
 42
0.0000000001
 43
0.0000000001
 44
0.0000000001
 40
0.0
 40
0.0
 40
0.0
 40
0.0
 40
6.082762530298219
 40
12.16552506059644
 40
12.16552506059644
 40
12.16552506059644
 40
12.16552506059644
 10
-8.0
 20
-1.0
 30
-0.0000000000000011
 10
-5.583333333333333
 20
-0.9166666666666666
 30
-0.0000000000000008
 10
-0.7500000000000002
 20
-0.75
 30
-0.0000000000000002
 10
-0.9166666666666666
 20
-5.583333333333332
 30
-0.0000000000000008
 10
-1.0
 20
-8.0
 30
-0.0000000000000011
 11
-8.0
 21
-1.0
 31
-0.0000000000000011
 11
-2.0
 21
-2.0
 31
-0.0000000000000005
 11
-1.0
 21
-8.0
 31
-0.0000000000000011
  0
TEXT
  5
226
330
1F
100
AcDbEntity
  8
0
100
AcDbText
 10
-7.0
 20
-7.0
 30
0.0
 40
1.0
  1
Text
 50
180.0
100
AcDbText
  0
POINT
  5
227
330
1F
100
AcDbEntity
  8
0
100
AcDbPoint
 10
4.0
 20
-4.0
 30
-0.0000000000000005
210
0.0
220
0.0000000000000001
230
-1.0
 50
180.0
  0
LINE
  5
228
330
1F
100
AcDbEntity
  8
0
100
AcDbLine
 10
0.0
 20
0.0
 30
0.0
 11
1.0
 21
-1.0
 31
-0.0000000000000001
210
0.0
220
0.0000000000000001
230
-1.0
  0
LWPOLYLINE
  5
229
330
1F
100
AcDbEntity
  8
0
100
AcDbPolyline
 90
        3
 70
     1
 43
0.0
 10
-1.0
 20
-1.0
 10
-2.0
 20
-1.0
 10
-1.0
 20
-2.0
210
0.0
220
0.0000000000000001
230
-1.0
  0
POLYLINE
  5
22A
330
1F
100
AcDbEntity
  8
0
100
AcDb3dPolyline
 66
     1
 10
0.0
 20
0.0
 30
0.0
 70
     9
  0
VERTEX
  5
22B
330
22A
100
AcDbEntity
  8
0
100
AcDbVertex
100
AcDb3dPolylineVertex
 10
1.0
 20
-1.0
 30
-0.0000000000000001
 70
    32
  0
VERTEX
  5
22C
330
22A
100
AcDbEntity
  8
0
100
AcDbVertex
100
AcDb3dPolylineVertex
 10
1.0
 20
-2.0
 30
-0.0000000000000002
 70
    32
  0
VERTEX
  5
22D
330
22A
100
AcDbEntity
  8
0
100
AcDbVertex
100
AcDb3dPolylineVertex
 10
2.0
 20
-2.0
 30
-0.0000000000000002
 70
    32
  0
SEQEND
  5
22E
330
22A
100
AcDbEntity
  8
0
  0
CIRCLE
  5
22F
330
1F
100
AcDbEntity
  8
0
100
AcDbCircle
 10
-4.0
 20
-4.0
 30
0.0
 40
2.0
210
0.0
220
0.0000000000000001
230
-1.0
  0
ELLIPSE
  5
230
330
1F
100
AcDbEntity
  8
0
100
AcDbEllipse
 10
4.0
 20
-4.0
 30
-0.0000000000000005
 11
-2.0
 21
0.0
 31
0.0
210
0.0
220
0.0000000000000001
230
-1.0
 40
0.5
 41
0.0
 42
6.283185307179586
  0
ARC
  5
231
330
1F
100
AcDbEntity
  8
0
100
AcDbCircle
 10
-2.5
 20
-2.5
 30
0.0
 40
0.7071067811865476
210
0.0
220
0.0000000000000001
230
-1.0
100
AcDbArc
 50
135.0
 51
45.0
  0
3DFACE
  5
232
330
1F
100
AcDbEntity
  8
0
100
AcDbFace
 10
1.0
 20
-2.0
 30
-0.0000000000000002
 11
1.0
 21
-3.0
 31
-0.0000000000000004
 12
2.0
 22
-3.0
 32
-0.0000000000000004
 13
2.0
 23
-2.0
 33
-0.0000000000000002
  0
SOLID
  5
233
330
1F
100
AcDbEntity
  8
0
100
AcDbTrace
 10
-3.0
 20
-4.0
 30
0.0
 11
-4.0
 21
-4.0
 31
0.0
 12
-3.0
 22
-3.0
 32
0.0
 13
-4.0
 23
-3.0
 33
0.0
210
0.0
220
0.0000000000000001
230
-1.0
  0
HATCH
  5
235
330
1F
100
AcDbEntity
  8
0
100
AcDbHatch
 10
0.0
 20
0.0
 30
0.0
210
0.0
220
0.0000000000000001
230
-1.0
  2
ANGLE
 70
     0
 71
     0
 91
        1
 92
        1
 93
        4
 72
     1
 10
-8.0
 20
-8.0
 11
-9.0
 21
-8.0
 72
     1
 10
-9.0
 20
-8.0
 11
-9.0
 21
-9.0
 72
     1
 10
-9.0
 20
-9.0
 11
-8.0
 21
-9.0
 72
     1
 10
-8.0
 20
-9.0
 11
-8.0
 21
-8.0
 97
        0
 75
     0
 76
     1
 52
0.0
 41
1.0
 77
     0
 78
     2
 53
180.0
 43
0.0
 44
0.0
 45
-0.0000000000000009
 46
-6.985
 79
     2
 49
5.08
 49
-1.905
 53
270.0
 43
0.0
 44
0.0
 45
6.985
 46
-0.0000000000000013
 79
     2
 49
5.08
 49
-1.905
 98
        1
 10
0.0
 20
0.0
1001
ACAD
1010
0.0
1020
0.0
1030
0.0
  0
SPLINE
  5
236
330
1F
100
AcDbEntity
  8
0
100
AcDbSpline
210
0.0
220
0.0
230
1.0
 70
  1080
 71
     3
 72
     9
 73
     5
 74
     3
 42
0.0000000001
 43
0.0000000001
 44
0.0000000001
 40
0.0
 40
0.0
 40
0.0
 40
0.0
 40
2.82842712474619
 40
8.485281374238571
 40
8.485281374238571
 40
8.485281374238571
 40
8.485281374238571
 10
2.0
 20
-2.0
 30
-0.0000000000000002
 10
2.666666666666666
 20
-2.666666666666666
 30
-0.0000000000000003
 10
4.666666666666666
 20
-4.666666666666666
 30
-0.0000000000000006
 10
6.666666666666666
 20
-6.666666666666666
 30
-0.0000000000000008
 10
8.0
 20
-8.0
 30
-0.000000000000001
 11
2.0
 21
-2.0
 31
-0.0000000000000002
 11
4.0
 21
-4.0
 31
-0.0000000000000005
 11
8.0
 21
-8.0
 31
-0.000000000000001
  0
SPLINE
  5
237
330
1F
100
AcDbEntity
  8
0
100
AcDbSpline
210
0.0000000000000001
220
-0.0000000000000002
230
1.0
 70
  1064
 71
     3
 72
     9
 73
     5
 74
     3
 42
0.0000000001
 43
0.0000000001
 44
0.0000000001
 40
0.0
 40
0.0
 40
0.0
 40
0.0
 40
6.082762530298219
 40
12.16552506059644
 40
12.16552506059644
 40
12.16552506059644
 40
12.16552506059644
 10
8.0
 20
-1.0
 30
-0.0000000000000001
 10
5.583333333333333
 20
-0.9166666666666666
 30
-0.0000000000000001
 10
0.7500000000000002
 20
-0.75
 30
-0.0000000000000001
 10
0.9166666666666666
 20
-5.583333333333332
 30
-0.0000000000000007
 10
1.0
 20
-8.0
 30
-0.000000000000001
 11
8.0
 21
-1.0
 31
-0.0000000000000001
 11
2.0
 21
-2.0
 31
-0.0000000000000002
 11
1.0
 21
-8.0
 31
-0.000000000000001
  0
TEXT
  5
238
330
1F
100
AcDbEntity
  8
0
100
AcDbText
 10
-7.0
 20
-7.0
 30
0.0
 40
1.0
  1
Text
 50
180.0
210
0.0
220
0.0000000000000001
230
-1.0
100
AcDbText
  0
VIEWPORT
  5
102
102
{ACAD_XDICTIONARY
360
373
102
}
330
23
100
AcDbEntity
 67
     1
  8
0
100
AcDbViewport
 10
128.5
 20
98.14473144822969
 30
0.0
 40
654.7948017621146
 41
223.4694628964594
 68
     1
 69
     1
 12
128.5
 22
98.14473144822969
 13
0.0
 23
0.0
 14
10.0
 24
10.0
 15
10.0
 25
10.0
 16
0.0
 26
0.0
 36
1.0
 17
0.0
 27
0.0
 37
0.0
 42
50.0
 43
0.0
 44
0.0
 45
223.4694628964594
 50
0.0
 51
0.0
 72
  1000
 90
    32800
  1

281
     0
 71
     1
 74
     0
110
0.0
120
0.0
130
0.0
111
1.0
121
0.0
131
0.0
112
0.0
122
1.0
132
0.0
 79
     0
146
0.0
  0
VIEWPORT
  5
104
102
{ACAD_XDICTIONARY
360
375
102
}
330
23
100
AcDbEntity
 67
     1
  8
0
100
AcDbViewport
 10
128.5
 20
97.5
 30
0.0
 40
205.6
 41
156.0
 68
     2
 69
     2
 12
513.4868045686685
 22
175.2385563380282
 13
0.0
 23
0.0
 14
10.0
 24
10.0
 15
10.0
 25
10.0
 16
0.0
 26
0.0
 36
1.0
 17
0.0
 27
0.0
 37
0.0
 42
50.0
 43
0.0
 44
0.0
 45
347.4734376308731
 50
0.0
 51
0.0
 72
  1000
 90
    32880
  1

281
     0
 71
     1
 74
     0
110
0.0
120
0.0
130
0.0
111
1.0
121
0.0
131
0.0
112
0.0
122
1.0
132
0.0
 79
     0
146
0.0
  0
ENDSEC
  0
SECTION
  2
OBJECTS
  0
DICTIONARY
  5
4CC
330
0
100
AcDbDictionary
281
     1
  3
ACAD_GROUP
350
4CD
  0
DICTIONARY
  5
4CD
102
{ACAD_REACTORS
330
4CC
102
}
330
4CC
100
AcDbDictionary
281
     1
  0
ENDSEC
  0
EOF
