  0
SECTION
  2
HEADER
  9
$ACADVER
  1
AC1027
  9
$HANDSEED
  5
F0001
  0
ENDSEC
  0
SECTION
  2
TABLES
  0
TABLE
  2
VPORT
  5
EEEE1
330
0
100
AcDbSymbolTable
 70
     1
  0
VPORT
  5
EEEEB
330
EEEE1
100
AcDbSymbolTableRecord
100
AcDbViewportTableRecord
  2
*ACTIVE
 70
     0
  0
ENDTAB
  0
TABLE
  2
LTYPE
  5
5
330
0
100
AcDbSymbolTable
 70
     4
  0
LTYPE
  5
14
330
5
100
AcDbSymbolTableRecord
100
AcDbLinetypeTableRecord
  2
ByBlock
 70
     0
  3

 72
    65
 73
     0
 40
0.0
  0
LTYPE
  5
15
330
5
100
AcDbSymbolTableRecord
100
AcDbLinetypeTableRecord
  2
ByLayer
 70
     0
  3

 72
    65
 73
     0
 40
0.0
  0
LTYPE
  5
16
330
5
100
AcDbSymbolTableRecord
100
AcDbLinetypeTableRecord
  2
Continuous
 70
     0
  3
Solid line
 72
    65
 73
     0
 40
0.0
  0
ENDTAB
  0
TABLE
  2
LAYER
  5
2
330
0
100
AcDbSymbolTable
 70
    10
  0
LAYER
  5
10
330
2
100
AcDbSymbolTableRecord
100
AcDbLayerTableRecord
  2
0
 70
     0
 62
     7
  6
Continuous
370
    -3
390
F
347
EE
348
0
  0
ENDTAB
  0
TABLE
  2
STYLE
  5
EEEE9
330
0
100
AcDbSymbolTable
 70
     3
  0
STYLE
  5
EEEF2
330
EEEE9
100
AcDbSymbolTableRecord
100
AcDbTextStyleTableRecord
  2
STANDARD
 70
     0
 40
0.0
 41
1.0
 50
0.0
 71
     0
 42
0.2
  3
txt
  4

  0
ENDTAB
  0
TABLE
  2
VIEW
  5
EEEE3
100
AcDbSymbolTable
  0
ENDTAB
  0
TABLE
  2
UCS
  5
EEEE2
100
AcDbSymbolTable
  0
ENDTAB
  0
TABLE
  2
APPID
  5
EEEE5
330
0
100
AcDbSymbolTable
 70
    1
  0
APPID
  5
EEEF3
330
EEEE5
100
AcDbSymbolTableRecord
100
AcDbRegAppTableRecord
  2
ACAD
 70
     0
  0
APPID
  5
214
330
9
100
AcDbSymbolTableRecord
100
AcDbRegAppTableRecord
  2
ACAD_OBJECT_CHANGE_GUID
 70
     0
  0
ENDTAB
  0
TABLE
  2
DIMSTYLE
  5
EEEE6
330
0
100
AcDbSymbolTable
 70
     2
100
AcDbDimStyleTable
 71
     0
  0
DIMSTYLE
105
EEEF4
330
EEEE6
100
AcDbSymbolTableRecord
100
AcDbDimStyleTableRecord
  2
STANDARD
 70
     0
279
     2
340
EEEF2
  0
ENDTAB
  0
TABLE
  2
BLOCK_RECORD
  5
EEEE7
330
0
100
AcDbSymbolTable
 70
     3
  0
BLOCK_RECORD
  5
EEEEE
330
EEEE7
100
AcDbSymbolTableRecord
100
AcDbBlockTableRecord
  2
*Model_Space
340
EEEEA
 70
     0
280
     1
281
     0
  0
BLOCK_RECORD
  5
EEEF6
330
EEEE7
100
AcDbSymbolTableRecord
100
AcDbBlockTableRecord
  2
*Paper_Space
340
EEEF5
 70
     0
280
     1
281
     0
  0
ENDTAB
  0
ENDSEC
  0
SECTION
  2
BLOCKS
  0
BLOCK
  5
EEEED
330
EEEEE
100
AcDbEntity
  8
0
100
AcDbBlockBegin
  2
*Model_Space
 70
     0
 10
0.0
 20
0.0
 30
0.0
  3
*Model_Space
  1

  0
ENDBLK
  5
EEEEC
330
EEEEE
100
AcDbEntity
  8
0
100
AcDbBlockEnd
  0
BLOCK
  5
EEEF7
330
EEEF6
100
AcDbEntity
 67
     1
  8
0
100
AcDbBlockBegin
  2
*Paper_Space
 70
     0
 10
0.0
 20
0.0
 30
0.0
  3
*Paper_Space
  1

  0
ENDBLK
  5
EEEF8
330
EEEF6
100
AcDbEntity
 67
     1
  8
0
100
AcDbBlockEnd
  0
ENDSEC
  0
SECTION
  2
ENTITIES
  0
POINT
  5
1B1
330
1F
100
AcDbEntity
  8
0
100
AcDbPoint
 10
4.0
 20
4.0
 30
0.0
  0
LINE
  5
1B2
330
1F
100
AcDbEntity
  8
0
100
AcDbLine
 10
0.0
 20
0.0
 30
0.0
 11
1.0
 21
1.0
 31
0.0
  0
LWPOLYLINE
  5
1B3
330
1F
100
AcDbEntity
  8
0
100
AcDbPolyline
 90
        3
 70
     1
 43
0.0
 10
1.0
 20
1.0
 10
2.0
 20
1.0
 10
1.0
 20
2.0
  0
POLYLINE
  5
1B4
330
1F
100
AcDbEntity
  8
0
100
AcDb3dPolyline
 66
     1
 10
0.0
 20
0.0
 30
0.0
 70
     9
  0
VERTEX
  5
1B5
330
1B4
100
AcDbEntity
  8
0
100
AcDbVertex
100
AcDb3dPolylineVertex
 10
1.0
 20
1.0
 30
0.0
 70
    32
  0
VERTEX
  5
1B6
330
1B4
100
AcDbEntity
  8
0
100
AcDbVertex
100
AcDb3dPolylineVertex
 10
1.0
 20
2.0
 30
0.0
 70
    32
  0
VERTEX
  5
1B7
330
1B4
100
AcDbEntity
  8
0
100
AcDbVertex
100
AcDb3dPolylineVertex
 10
2.0
 20
2.0
 30
0.0
 70
    32
  0
SEQEND
  5
1B8
330
1B4
100
AcDbEntity
  8
0
  0
CIRCLE
  5
1B9
330
1F
100
AcDbEntity
  8
0
100
AcDbCircle
 10
4.0
 20
4.0
 30
0.0
 40
2.0
  0
LINE
  5
1BA
330
1F
100
AcDbEntity
  8
0
100
AcDbLine
 10
2.0
 20
4.0
 30
0.0
 11
4.0
 21
4.0
 31
0.0
  0
LINE
  5
1BB
330
1F
100
AcDbEntity
  8
0
100
AcDbLine
 10
4.0
 20
4.0
 30
0.0
 11
6.0
 21
4.0
 31
0.0
  0
LINE
  5
1BC
330
1F
100
AcDbEntity
  8
0
100
AcDbLine
 10
4.0
 20
3.0
 30
0.0
 11
4.0
 21
4.0
 31
0.0
  0
LINE
  5
1BD
330
1F
100
AcDbEntity
  8
0
100
AcDbLine
 10
4.0
 20
4.0
 30
0.0
 11
4.0
 21
5.0
 31
0.0
  0
ELLIPSE
  5
1BE
330
1F
100
AcDbEntity
  8
0
100
AcDbEllipse
 10
4.0
 20
4.0
 30
0.0
 11
-2.0
 21
0.0
 31
0.0
210
0.0
220
0.0
230
1.0
 40
0.5
 41
0.0
 42
6.283185307179586
1001
ACAD_OBJECT_CHANGE_GUID
1070
     0
1071
        0
1070
     0
1070
     0
1070
     0
1070
     0
1070
     0
1070
     0
1070
     0
1070
     0
1070
     0
1070
     0
  0
ARC
  5
1BF
330
1F
100
AcDbEntity
  8
0
100
AcDbCircle
 10
2.5
 20
2.5
 30
0.0
 40
0.7071067811865476
100
AcDbArc
 50
315.0
 51
225.0000000000001
  0
3DFACE
  5
1C0
330
1F
100
AcDbEntity
  8
0
100
AcDbFace
 10
1.0
 20
2.0
 30
0.0
 11
1.0
 21
3.0
 31
0.0
 12
2.0
 22
3.0
 32
0.0
 13
2.0
 23
2.0
 33
0.0
  0
SOLID
  5
1C1
330
1F
100
AcDbEntity
  8
0
100
AcDbTrace
 10
3.0
 20
4.0
 30
0.0
 11
4.0
 21
4.0
 31
0.0
 12
3.0
 22
3.0
 32
0.0
 13
4.0
 23
3.0
 33
0.0
  0
HATCH
  5
1C3
330
1F
100
AcDbEntity
  8
0
100
AcDbHatch
 10
0.0
 20
0.0
 30
0.0
210
0.0
220
0.0
230
1.0
  2
ANGLE
 70
     0
 71
     0
 91
        1
 92
        1
 93
        4
 72
     1
 10
8.0
 20
8.0
 11
9.0
 21
8.0
 72
     1
 10
9.0
 20
8.0
 11
9.0
 21
9.0
 72
     1
 10
9.0
 20
9.0
 11
8.0
 21
9.0
 72
     1
 10
8.0
 20
9.0
 11
8.0
 21
8.0
 97
        0
 75
     0
 76
     1
 52
0.0
 41
1.0
 77
     0
 78
     2
 53
0.0
 43
0.0
 44
0.0
 45
0.0
 46
6.985
 79
     2
 49
5.08
 49
-1.905
 53
90.0
 43
0.0
 44
0.0
 45
-6.985
 46
0.0000000000000004
 79
     2
 49
5.08
 49
-1.905
 98
        1
 10
0.0
 20
0.0
1001
ACAD
1010
0.0
1020
0.0
1030
0.0
  0
SPLINE
  5
1C6
330
1F
100
AcDbEntity
  8
0
100
AcDbSpline
210
0.0
220
0.0
230
1.0
 70
  1080
 71
     3
 72
     9
 73
     5
 74
     3
 42
0.0000000001
 43
0.0000000001
 44
0.0000000001
 40
0.0
 40
0.0
 40
0.0
 40
0.0
 40
2.82842712474619
 40
8.485281374238571
 40
8.485281374238571
 40
8.485281374238571
 40
8.485281374238571
 10
2.0
 20
2.0
 30
0.0
 10
2.666666666666666
 20
2.666666666666666
 30
0.0
 10
4.666666666666666
 20
4.666666666666666
 30
0.0
 10
6.666666666666666
 20
6.666666666666666
 30
0.0
 10
8.0
 20
8.0
 30
0.0
 11
2.0
 21
2.0
 31
0.0
 11
4.0
 21
4.0
 31
0.0
 11
8.0
 21
8.0
 31
0.0
1001
ACAD_OBJECT_CHANGE_GUID
1070
     0
1071
        0
1070
     0
1070
     0
1070
     0
1070
     0
1070
     0
1070
     0
1070
     0
1070
     0
1070
     0
1070
     0
  0
SPLINE
  5
1C7
330
1F
100
AcDbEntity
  8
0
100
AcDbSpline
210
0.0
220
0.0
230
1.0
 70
  1064
 71
     3
 72
     9
 73
     5
 74
     3
 42
0.0000000001
 43
0.0000000001
 44
0.0000000001
 40
0.0
 40
0.0
 40
0.0
 40
0.0
 40
6.082762530298219
 40
12.16552506059644
 40
12.16552506059644
 40
12.16552506059644
 40
12.16552506059644
 10
8.0
 20
1.0
 30
0.0
 10
5.583333333333333
 20
0.9166666666666666
 30
0.0
 10
0.7500000000000002
 20
0.75
 30
0.0
 10
0.9166666666666666
 20
5.583333333333332
 30
0.0
 10
1.0
 20
8.0
 30
0.0
 11
8.0
 21
1.0
 31
0.0
 11
2.0
 21
2.0
 31
0.0
 11
1.0
 21
8.0
 31
0.0
1001
ACAD_OBJECT_CHANGE_GUID
1070
     0
1071
        0
1070
     0
1070
     0
1070
     0
1070
     0
1070
     0
1070
     0
1070
     0
1070
     0
1070
     0
1070
     0
  0
TEXT
  5
1C8
330
1F
100
AcDbEntity
  8
0
100
AcDbText
 10
7.0
 20
7.0
 30
0.0
 40
1.0
  1
Text
100
AcDbText
  0
POINT
  5
1C9
330
1F
100
AcDbEntity
  8
0
100
AcDbPoint
 10
-1.999999999999999
 20
4.0
 30
-3.464101615137755
210
0.8660254037844389
220
0.0
230
-0.4999999999999999
 50
90.0
  0
LINE
  5
1CA
330
1F
100
AcDbEntity
  8
0
100
AcDbLine
 10
0.0
 20
0.0
 30
0.0
 11
-0.4999999999999999
 21
1.0
 31
-0.8660254037844389
210
0.8660254037844389
220
0.0
230
-0.4999999999999999
  0
LWPOLYLINE
  5
1CB
330
1F
100
AcDbEntity
  8
0
100
AcDbPolyline
 90
        3
 70
     1
 43
0.0
 10
1.0
 20
-1.0
 10
1.0
 20
-2.0
 10
2.0
 20
-1.0
210
0.8660254037844389
220
0.0
230
-0.4999999999999999
  0
POLYLINE
  5
1CC
330
1F
100
AcDbEntity
  8
0
100
AcDb3dPolyline
 66
     1
 10
0.0
 20
0.0
 30
0.0
 70
     9
  0
VERTEX
  5
1CD
330
1CC
100
AcDbEntity
  8
0
100
AcDbVertex
100
AcDb3dPolylineVertex
 10
-0.4999999999999999
 20
1.0
 30
-0.8660254037844389
 70
    32
  0
VERTEX
  5
1CE
330
1CC
100
AcDbEntity
  8
0
100
AcDbVertex
100
AcDb3dPolylineVertex
 10
-0.4999999999999999
 20
2.0
 30
-0.8660254037844389
 70
    32
  0
VERTEX
  5
1CF
330
1CC
100
AcDbEntity
  8
0
100
AcDbVertex
100
AcDb3dPolylineVertex
 10
-0.9999999999999996
 20
2.0
 30
-1.732050807568877
 70
    32
  0
SEQEND
  5
1D0
330
1CC
100
AcDbEntity
  8
0
  0
CIRCLE
  5
1D1
330
1F
100
AcDbEntity
  8
0
100
AcDbCircle
 10
4.0
 20
-4.0
 30
0.0
 40
2.0
210
0.8660254037844389
220
0.0
230
-0.4999999999999999
  0
LINE
  5
1D2
330
1F
100
AcDbEntity
  8
0
100
AcDbLine
 10
-0.9999999999999996
 20
4.0
 30
-1.732050807568877
 11
-1.999999999999999
 21
4.0
 31
-3.464101615137755
210
0.8660254037844389
220
0.0
230
-0.4999999999999999
  0
LINE
  5
1D3
330
1F
100
AcDbEntity
  8
0
100
AcDbLine
 10
-1.999999999999999
 20
4.0
 30
-3.464101615137755
 11
-2.999999999999998
 21
4.0
 31
-5.196152422706632
210
0.8660254037844389
220
0.0
230
-0.4999999999999999
  0
LINE
  5
1D4
330
1F
100
AcDbEntity
  8
0
100
AcDbLine
 10
-1.999999999999999
 20
3.0
 30
-3.464101615137755
 11
-1.999999999999999
 21
4.0
 31
-3.464101615137755
210
0.8660254037844389
220
0.0
230
-0.4999999999999999
  0
LINE
  5
1D5
330
1F
100
AcDbEntity
  8
0
100
AcDbLine
 10
-1.999999999999999
 20
4.0
 30
-3.464101615137755
 11
-1.999999999999999
 21
5.0
 31
-3.464101615137755
210
0.8660254037844389
220
0.0
230
-0.4999999999999999
  0
ELLIPSE
  5
1D6
330
1F
100
AcDbEntity
  8
0
100
AcDbEllipse
 10
-1.999999999999999
 20
4.0
 30
-3.464101615137755
 11
0.9999999999999996
 21
0.0
 31
1.732050807568877
210
0.8660254037844389
220
0.0
230
-0.4999999999999999
 40
0.5
 41
0.0
 42
6.283185307179586
1001
ACAD_OBJECT_CHANGE_GUID
1070
     0
1071
        0
1070
     0
1070
     0
1070
     0
1070
     0
1070
     0
1070
     0
1070
     0
1070
     0
1070
     0
1070
     0
  0
ARC
  5
1D7
330
1F
100
AcDbEntity
  8
0
100
AcDbCircle
 10
2.5
 20
-2.5
 30
0.0
 40
0.7071067811865476
210
0.8660254037844389
220
0.0
230
-0.4999999999999999
100
AcDbArc
 50
225.0
 51
134.9999999999999
  0
3DFACE
  5
1D8
330
1F
100
AcDbEntity
  8
0
100
AcDbFace
 10
-0.4999999999999999
 20
2.0
 30
-0.8660254037844389
 11
-0.4999999999999999
 21
3.0
 31
-0.8660254037844389
 12
-0.9999999999999996
 22
3.0
 32
-1.732050807568877
 13
-0.9999999999999996
 23
2.0
 33
-1.732050807568877
  0
SOLID
  5
1D9
330
1F
100
AcDbEntity
  8
0
100
AcDbTrace
 10
4.0
 20
-3.0
 30
0.0
 11
4.0
 21
-4.0
 31
0.0
 12
3.0
 22
-3.0
 32
0.0
 13
3.0
 23
-4.0
 33
0.0
210
0.8660254037844389
220
0.0
230
-0.4999999999999999
  0
HATCH
  5
1DB
330
1F
100
AcDbEntity
  8
0
100
AcDbHatch
 10
0.0
 20
0.0
 30
0.0
210
0.8660254037844389
220
0.0
230
-0.4999999999999999
  2
ANGLE
 70
     0
 71
     0
 91
        1
 92
        1
 93
        4
 72
     1
 10
8.0
 20
-8.0
 11
8.0
 21
-9.0
 72
     1
 10
8.0
 20
-9.0
 11
9.0
 21
-9.0
 72
     1
 10
9.0
 20
-9.0
 11
9.0
 21
-8.0
 72
     1
 10
9.0
 20
-8.0
 11
8.0
 21
-8.0
 97
        0
 75
     0
 76
     1
 52
0.0
 41
1.0
 77
     0
 78
     2
 53
270.0
 43
0.0
 44
0.0
 45
6.985
 46
-0.0000000000000013
 79
     2
 49
5.08
 49
-1.905
 53
0.0
 43
0.0
 44
0.0
 45
0.0000000000000017
 46
6.985
 79
     2
 49
5.08
 49
-1.905
 98
        1
 10
0.0
 20
0.0
1001
ACAD
1010
0.0
1020
0.0
1030
0.0
  0
SPLINE
  5
1DC
330
1F
100
AcDbEntity
  8
0
100
AcDbSpline
210
-0.894427190999916
220
-0.4472135954999581
230
0.0
 70
  1080
 71
     3
 72
     9
 73
     5
 74
     3
 42
0.0000000001
 43
0.0000000001
 44
0.0000000001
 40
0.0
 40
0.0
 40
0.0
 40
0.0
 40
2.82842712474619
 40
8.485281374238571
 40
8.485281374238571
 40
8.485281374238571
 40
8.485281374238571
 10
-0.9999999999999996
 20
2.0
 30
-1.732050807568877
 10
-1.333333333333332
 20
2.666666666666666
 30
-2.309401076758503
 10
-2.333333333333331
 20
4.666666666666666
 30
-4.04145188432738
 10
-3.333333333333332
 20
6.666666666666666
 30
-5.773502691896258
 10
-3.999999999999998
 20
8.0
 30
-6.92820323027551
 11
-0.9999999999999996
 21
2.0
 31
-1.732050807568877
 11
-1.999999999999999
 21
4.0
 31
-3.464101615137755
 11
-3.999999999999998
 21
8.0
 31
-6.92820323027551
1001
ACAD_OBJECT_CHANGE_GUID
1070
     0
1071
        0
1070
     0
1070
     0
1070
     0
1070
     0
1070
     0
1070
     0
1070
     0
1070
     0
1070
     0
1070
     0
  0
SPLINE
  5
1DD
330
1F
100
AcDbEntity
  8
0
100
AcDbSpline
210
-0.8660254037844389
220
-0.0000000000000003
230
0.5
 70
  1064
 71
     3
 72
     9
 73
     5
 74
     3
 42
0.0000000001
 43
0.0000000001
 44
0.0000000001
 40
0.0
 40
0.0
 40
0.0
 40
0.0
 40
6.082762530298219
 40
12.16552506059644
 40
12.16552506059644
 40
12.16552506059644
 40
12.16552506059644
 10
-3.999999999999998
 20
1.0
 30
-6.92820323027551
 10
-2.791666666666665
 20
0.9166666666666666
 30
-4.835308504463116
 10
-0.375
 20
0.75
 30
-0.6495190528383291
 10
-0.4583333333333332
 20
5.583333333333332
 30
-0.7938566201357357
 10
-0.4999999999999999
 20
8.0
 30
-0.8660254037844389
 11
-3.999999999999998
 21
1.0
 31
-6.92820323027551
 11
-0.9999999999999996
 21
2.0
 31
-1.732050807568877
 11
-0.4999999999999999
 21
8.0
 31
-0.8660254037844389
1001
ACAD_OBJECT_CHANGE_GUID
1070
     0
1071
        0
1070
     0
1070
     0
1070
     0
1070
     0
1070
     0
1070
     0
1070
     0
1070
     0
1070
     0
1070
     0
  0
TEXT
  5
1DE
330
1F
100
AcDbEntity
  8
0
100
AcDbText
 10
7.0
 20
-7.0
 30
0.0
 40
1.0
  1
Text
 50
270.0
210
0.8660254037844389
220
0.0
230
-0.4999999999999999
100
AcDbText
  0
POINT
  5
1DF
330
1F
100
AcDbEntity
  8
0
100
AcDbPoint
 10
1.000000000000001
 20
-1.999999999999999
 30
-5.196152422706631
210
-0.4330127018922195
220
-0.8660254037844389
230
0.2499999999999998
 50
116.5650511770779
  0
LINE
  5
1E0
330
1F
100
AcDbEntity
  8
0
100
AcDbLine
 10
0.0
 20
0.0
 30
0.0
 11
0.2500000000000005
 21
-0.5
 31
-1.299038105676657
210
-0.4330127018922195
220
-0.8660254037844389
230
0.2499999999999998
  0
LWPOLYLINE
  5
1E1
330
1F
100
AcDbEntity
  8
0
100
AcDbPolyline
 90
        3
 70
     1
 43
0.0
 10
0.4472135954999584
 20
-1.341640786499873
 10
0.0000000000000006
 20
-2.236067977499789
 10
1.341640786499874
 20
-1.788854381999831
210
-0.4330127018922195
220
-0.8660254037844389
230
0.2499999999999998
  0
POLYLINE
  5
1E2
330
1F
100
AcDbEntity
  8
0
100
AcDb3dPolyline
 66
     1
 10
0.0
 20
0.0
 30
0.0
 70
     9
  0
VERTEX
  5
1E3
330
1E2
100
AcDbEntity
  8
0
100
AcDbVertex
100
AcDb3dPolylineVertex
 10
0.2500000000000005
 20
-0.5
 30
-1.299038105676657
 70
    32
  0
VERTEX
  5
1E4
330
1E2
100
AcDbEntity
  8
0
100
AcDbVertex
100
AcDb3dPolylineVertex
 10
1.0
 20
-1.0
 30
-1.732050807568877
 70
    32
  0
VERTEX
  5
1E5
330
1E2
100
AcDbEntity
  8
0
100
AcDbVertex
100
AcDb3dPolylineVertex
 10
0.500000000000001
 20
-0.9999999999999998
 30
-2.598076211353315
 70
    32
  0
SEQEND
  5
1E6
330
1E2
100
AcDbEntity
  8
0
  0
CIRCLE
  5
1E7
330
1F
100
AcDbEntity
  8
0
100
AcDbCircle
 10
1.788854381999833
 20
-5.366563145999497
 30
0.0000000000000002
 40
2.0
210
-0.4330127018922193
220
-0.8660254037844385
230
0.2499999999999998
  0
LINE
  5
1E8
330
1F
100
AcDbEntity
  8
0
100
AcDbLine
 10
2.000000000000001
 20
-2.0
 30
-3.464101615137754
 11
1.000000000000001
 21
-1.999999999999999
 31
-5.196152422706631
210
-0.4330127018922195
220
-0.8660254037844389
230
0.2499999999999998
  0
LINE
  5
1E9
330
1F
100
AcDbEntity
  8
0
100
AcDbLine
 10
1.000000000000001
 20
-1.999999999999999
 30
-5.196152422706631
 11
0.0000000000000022
 21
-1.999999999999999
 31
-6.928203230275509
210
-0.4330127018922195
220
-0.8660254037844389
230
0.2499999999999998
  0
LINE
  5
1EA
330
1F
100
AcDbEntity
  8
0
100
AcDbLine
 10
0.2500000000000019
 20
-1.499999999999999
 30
-4.763139720814412
 11
1.000000000000001
 21
-1.999999999999999
 31
-5.196152422706631
210
-0.4330127018922195
220
-0.8660254037844389
230
0.2499999999999998
  0
LINE
  5
1EB
330
1F
100
AcDbEntity
  8
0
100
AcDbLine
 10
1.000000000000001
 20
-1.999999999999999
 30
-5.196152422706631
 11
1.750000000000001
 21
-2.499999999999999
 31
-5.62916512459885
210
-0.4330127018922195
220
-0.8660254037844389
230
0.2499999999999998
  0
ELLIPSE
  5
1EC
330
1F
100
AcDbEntity
  8
0
100
AcDbEllipse
 10
1.000000000000001
 20
-1.999999999999999
 30
-5.196152422706631
 11
0.9999999999999994
 21
-0.0000000000000002
 31
1.732050807568877
210
-0.4330127018922195
220
-0.8660254037844385
230
0.2499999999999998
 40
0.5000000000000001
 41
0.0
 42
6.283185307179586
1001
ACAD_OBJECT_CHANGE_GUID
1070
     0
1071
        0
1070
     0
1070
     0
1070
     0
1070
     0
1070
     0
1070
     0
1070
     0
1070
     0
1070
     0
1070
     0
  0
ARC
  5
1ED
330
1F
100
AcDbEntity
  8
0
100
AcDbCircle
 10
1.118033988749896
 20
-3.354101966249685
 30
0.0000000000000001
 40
0.7071067811865475
210
-0.4330127018922193
220
-0.8660254037844385
230
0.2499999999999998
100
AcDbArc
 50
198.434948822922
 51
108.4349488229219
  0
3DFACE
  5
1EE
330
1F
100
AcDbEntity
  8
0
100
AcDbFace
 10
1.0
 20
-1.0
 30
-1.732050807568877
 11
1.750000000000001
 21
-1.5
 31
-2.165063509461095
 12
1.250000000000001
 22
-1.5
 32
-3.031088913245534
 13
0.500000000000001
 23
-0.9999999999999998
 33
-2.598076211353315
  0
SOLID
  5
1EF
330
1F
100
AcDbEntity
  8
0
100
AcDbTrace
 10
2.23606797749979
 20
-4.472135954999578
 30
0.0
 11
1.788854381999833
 21
-5.366563145999494
 31
0.0
 12
1.341640786499874
 22
-4.024922359499621
 32
0.0
 13
0.8944271909999173
 23
-4.919349550499537
 33
0.0
210
-0.4330127018922195
220
-0.8660254037844389
230
0.2499999999999998
  0
HATCH
  5
1F1
330
1F
100
AcDbEntity
  8
0
100
AcDbHatch
 10
0.0
 20
0.0
 30
0.0
210
-0.4330127018922195
220
-0.8660254037844389
230
0.2499999999999998
  2
ANGLE
 70
     0
 71
     0
 91
        1
 92
        1
 93
        4
 72
     1
 10
3.577708763999666
 20
-10.73312629199899
 11
3.130495168499707
 21
-11.6275534829989
 72
     1
 10
3.130495168499707
 20
-11.6275534829989
 11
4.024922359499624
 21
-12.07476707849886
 72
     1
 10
4.024922359499624
 20
-12.07476707849886
 11
4.472135954999583
 21
-11.18033988749894
 72
     1
 10
4.472135954999583
 20
-11.18033988749894
 11
3.577708763999666
 21
-10.73312629199899
 97
        0
 75
     0
 76
     1
 52
0.0
 41
1.0
 77
     0
 78
     2
 53
243.4349488229221
 43
0.0
 44
0.0
 45
6.247573929134414
 46
-3.123786964567202
 79
     2
 49
5.08
 49
-1.905
 53
333.4349488229221
 43
0.0
 44
0.0
 45
3.123786964567202
 46
6.247573929134414
 79
     2
 49
5.08
 49
-1.905
 98
        1
 10
0.0
 20
0.0
1001
ACAD
1010
0.0
1020
0.0
1030
0.0
  0
SPLINE
  5
1F2
330
1F
100
AcDbEntity
  8
0
100
AcDbSpline
210
-0.8944271909999155
220
-0.4472135954999589
230
0.0
 70
  1080
 71
     3
 72
     9
 73
     5
 74
     3
 42
0.0000000001
 43
0.0000000001
 44
0.0000000001
 40
0.0
 40
0.0
 40
0.0
 40
0.0
 40
2.828427124746189
 40
8.485281374238569
 40
8.485281374238569
 40
8.485281374238569
 40
8.485281374238569
 10
0.500000000000001
 20
-0.9999999999999998
 30
-2.598076211353315
 10
0.6666666666666681
 20
-1.333333333333333
 30
-3.464101615137753
 10
1.166666666666668
 20
-2.333333333333332
 30
-6.062177826491069
 10
1.66666666666667
 20
-3.333333333333332
 30
-8.660254037844385
 10
2.000000000000003
 20
-3.999999999999999
 30
-10.39230484541326
 11
0.500000000000001
 21
-0.9999999999999998
 31
-2.598076211353315
 11
1.000000000000001
 21
-1.999999999999999
 31
-5.196152422706631
 11
2.000000000000003
 21
-3.999999999999999
 31
-10.39230484541326
1001
ACAD_OBJECT_CHANGE_GUID
1070
     0
1071
        0
1070
     0
1070
     0
1070
     0
1070
     0
1070
     0
1070
     0
1070
     0
1070
     0
1070
     0
1070
     0
  0
SPLINE
  5
1F3
330
1F
100
AcDbEntity
  8
0
100
AcDbSpline
210
0.4330127018922193
220
0.8660254037844389
230
-0.2499999999999996
 70
  1064
 71
     3
 72
     9
 73
     5
 74
     3
 42
0.0000000001
 43
0.0000000001
 44
0.0000000001
 40
0.0
 40
0.0
 40
0.0
 40
0.0
 40
6.082762530298219
 40
12.16552506059644
 40
12.16552506059644
 40
12.16552506059644
 40
12.16552506059644
 10
-3.249999999999997
 20
-0.4999999999999996
 30
-7.361215932167728
 10
-2.104166666666664
 20
-0.4583333333333332
 30
-5.232236814530984
 10
0.1875000000000009
 20
-0.375
 30
-0.9742785792574933
 10
3.729166666666668
 20
-2.791666666666666
 30
-3.211510872367292
 10
5.500000000000002
 20
-4.0
 30
-4.330127018922191
 11
-3.249999999999997
 21
-0.4999999999999996
 31
-7.361215932167728
 11
0.500000000000001
 21
-0.9999999999999998
 31
-2.598076211353315
 11
5.500000000000002
 21
-4.0
 31
-4.330127018922191
1001
ACAD_OBJECT_CHANGE_GUID
1070
     0
1071
        0
1070
     0
1070
     0
1070
     0
1070
     0
1070
     0
1070
     0
1070
     0
1070
     0
1070
     0
1070
     0
  0
TEXT
  5
1F4
330
1F
100
AcDbEntity
  8
0
100
AcDbText
 10
3.130495168499708
 20
-9.391485505499115
 30
0.0
 40
1.0
  1
Text
 50
243.4349488229221
210
-0.4330127018922193
220
-0.8660254037844385
230
0.2499999999999998
100
AcDbText
  0
POINT
  5
1F5
330
1F
100
AcDbEntity
  8
0
100
AcDbPoint
 10
5.500000000000002
 20
1.0
 30
-0.8660254037844394
210
-0.2165063509461097
220
0.4330127018922191
230
-0.8750000000000001
 50
206.565051177078
  0
LINE
  5
1F6
330
1F
100
AcDbEntity
  8
0
100
AcDbLine
 10
0.0
 20
0.0
 30
0.0
 11
1.375
 21
0.2500000000000002
 31
-0.2165063509461099
210
-0.2165063509461097
220
0.4330127018922191
230
-0.8750000000000001
  0
LWPOLYLINE
  5
1F7
330
1F
100
AcDbEntity
  8
0
100
AcDbPolyline
 90
        3
 70
     1
 43
0.0
 10
-1.341640786499874
 20
-0.4472135954999585
 10
-2.236067977499791
 20
-0.0000000000000002
 10
-1.788854381999832
 20
-1.341640786499874
210
-0.2165063509461097
220
0.4330127018922191
230
-0.8750000000000001
  0
POLYLINE
  5
1F8
330
1F
100
AcDbEntity
  8
0
100
AcDb3dPolyline
 66
     1
 10
0.0
 20
0.0
 30
0.0
 70
     9
  0
VERTEX
  5
1F9
330
1F8
100
AcDbEntity
  8
0
100
AcDbVertex
100
AcDb3dPolylineVertex
 10
1.375
 20
0.2500000000000002
 30
-0.2165063509461099
 70
    32
  0
VERTEX
  5
1FA
330
1F8
100
AcDbEntity
  8
0
100
AcDbVertex
100
AcDb3dPolylineVertex
 10
2.125000000000001
 20
-0.25
 30
-0.6495190528383294
 70
    32
  0
VERTEX
  5
1FB
330
1F8
100
AcDbEntity
  8
0
100
AcDbVertex
100
AcDb3dPolylineVertex
 10
2.750000000000001
 20
0.5000000000000005
 30
-0.4330127018922198
 70
    32
  0
SEQEND
  5
1FC
330
1F8
100
AcDbEntity
  8
0
  0
CIRCLE
  5
1FD
330
1F
100
AcDbEntity
  8
0
100
AcDbCircle
 10
-5.366563145999499
 20
-1.788854381999834
 30
0.0000000000000001
 40
2.0
210
-0.2165063509461097
220
0.4330127018922191
230
-0.8750000000000001
  0
LINE
  5
1FE
330
1F
100
AcDbEntity
  8
0
100
AcDbLine
 10
4.250000000000003
 20
-0.5
 30
-1.299038105676658
 11
5.500000000000002
 21
1.0
 31
-0.8660254037844394
210
-0.2165063509461097
220
0.4330127018922191
230
-0.8750000000000001
  0
LINE
  5
1FF
330
1F
100
AcDbEntity
  8
0
100
AcDbLine
 10
5.500000000000002
 20
1.0
 30
-0.8660254037844394
 11
6.750000000000002
 21
2.500000000000002
 31
-0.4330127018922196
210
-0.2165063509461097
220
0.4330127018922191
230
-0.8750000000000001
  0
LINE
  5
200
330
1F
100
AcDbEntity
  8
0
100
AcDbLine
 10
4.750000000000001
 20
1.500000000000001
 30
-0.4330127018922198
 11
5.500000000000002
 21
1.0
 31
-0.8660254037844394
210
-0.2165063509461097
220
0.4330127018922191
230
-0.8750000000000001
  0
LINE
  5
201
330
1F
100
AcDbEntity
  8
0
100
AcDbLine
 10
5.500000000000002
 20
1.0
 30
-0.8660254037844394
 11
6.250000000000003
 21
0.5000000000000009
 31
-1.299038105676658
210
-0.2165063509461097
220
0.4330127018922191
230
-0.8750000000000001
  0
ELLIPSE
  5
202
330
1F
100
AcDbEntity
  8
0
100
AcDbEllipse
 10
5.500000000000002
 20
1.0
 30
-0.8660254037844394
 11
-1.25
 21
-1.5
 31
-0.4330127018922193
210
-0.2165063509461097
220
0.4330127018922192
230
-0.8750000000000001
 40
0.5
 41
0.0
 42
6.283185307179586
1001
ACAD_OBJECT_CHANGE_GUID
1070
     0
1071
        0
1070
     0
1070
     0
1070
     0
1070
     0
1070
     0
1070
     0
1070
     0
1070
     0
1070
     0
1070
     0
  0
ARC
  5
203
330
1F
100
AcDbEntity
  8
0
100
AcDbCircle
 10
-3.354101966249687
 20
-1.118033988749896
 30
0.0000000000000001
 40
0.7071067811865483
210
-0.2165063509461097
220
0.4330127018922191
230
-0.8750000000000001
100
AcDbArc
 50
108.4349488229219
 51
18.43494882292205
  0
3DFACE
  5
204
330
1F
100
AcDbEntity
  8
0
100
AcDbFace
 10
2.125000000000001
 20
-0.25
 30
-0.6495190528383294
 11
2.875000000000001
 21
-0.75
 31
-1.082531754730548
 12
3.500000000000002
 22
0.0000000000000009
 32
-0.8660254037844389
 13
2.750000000000001
 23
0.5000000000000005
 33
-0.4330127018922198
  0
SOLID
  5
205
330
1F
100
AcDbEntity
  8
0
100
AcDbTrace
 10
-4.472135954999581
 20
-2.236067977499792
 30
0.0
 11
-5.366563145999498
 21
-1.788854381999833
 31
0.0
 12
-4.024922359499623
 22
-1.341640786499874
 32
0.0
 13
-4.919349550499539
 23
-0.8944271909999168
 33
0.0
210
-0.2165063509461097
220
0.4330127018922191
230
-0.8750000000000001
  0
HATCH
  5
207
330
1F
100
AcDbEntity
  8
0
100
AcDbHatch
 10
0.0
 20
0.0
 30
0.0
210
-0.2165063509461097
220
0.4330127018922191
230
-0.8750000000000001
  2
ANGLE
 70
     0
 71
     0
 91
        1
 92
        1
 93
        4
 72
     1
 10
-10.73312629199899
 20
-3.577708763999667
 11
-11.62755348299891
 21
-3.130495168499707
 72
     1
 10
-11.62755348299891
 20
-3.130495168499707
 11
-12.07476707849887
 21
-4.024922359499624
 72
     1
 10
-12.07476707849887
 20
-4.024922359499624
 11
-11.18033988749895
 21
-4.472135954999583
 72
     1
 10
-11.18033988749895
 20
-4.472135954999583
 11
-10.73312629199899
 21
-3.577708763999667
 97
        0
 75
     0
 76
     1
 52
0.0
 41
1.0
 77
     0
 78
     2
 53
153.434948822922
 43
0.0
 44
0.0
 45
-3.123786964567207
 46
-6.247573929134412
 79
     2
 49
5.08
 49
-1.905
 53
243.434948822922
 43
0.0
 44
0.0
 45
6.247573929134412
 46
-3.123786964567207
 79
     2
 49
5.08
 49
-1.905
 98
        1
 10
0.0
 20
0.0
1001
ACAD
1010
0.0
1020
0.0
1030
0.0
  0
SPLINE
  5
208
330
1F
100
AcDbEntity
  8
0
100
AcDbSpline
210
0.1788854381999835
220
-0.9838699100999075
230
0.0
 70
  1080
 71
     3
 72
     9
 73
     5
 74
     3
 42
0.0000000001
 43
0.0000000001
 44
0.0000000001
 40
0.0
 40
0.0
 40
0.0
 40
0.0
 40
2.828427124746191
 40
8.485281374238573
 40
8.485281374238573
 40
8.485281374238573
 40
8.485281374238573
 10
2.750000000000001
 20
0.5000000000000005
 30
-0.4330127018922198
 10
3.666666666666668
 20
0.6666666666666672
 30
-0.5773502691896264
 10
6.416666666666669
 20
1.166666666666667
 30
-1.010362971081846
 10
9.166666666666669
 20
1.666666666666667
 30
-1.443375672974065
 10
11.0
 20
2.000000000000001
 30
-1.732050807568878
 11
2.750000000000001
 21
0.5000000000000005
 31
-0.4330127018922198
 11
5.500000000000002
 21
1.0
 31
-0.8660254037844394
 11
11.0
 21
2.000000000000001
 31
-1.732050807568878
1001
ACAD_OBJECT_CHANGE_GUID
1070
     0
1071
        0
1070
     0
1070
     0
1070
     0
1070
     0
1070
     0
1070
     0
1070
     0
1070
     0
1070
     0
1070
     0
  0
SPLINE
  5
209
330
1F
100
AcDbEntity
  8
0
100
AcDbSpline
210
0.2165063509461097
220
-0.4330127018922193
230
0.875
 70
  1064
 71
     3
 72
     9
 73
     5
 74
     3
 42
0.0000000001
 43
0.0000000001
 44
0.0000000001
 40
0.0
 40
0.0
 40
0.0
 40
0.0
 40
6.082762530298225
 40
12.16552506059645
 40
12.16552506059645
 40
12.16552506059645
 40
12.16552506059645
 10
5.750000000000003
 20
5.500000000000005
 30
1.299038105676658
 10
4.177083333333335
 20
3.72916666666667
 30
0.8118988160479112
 10
1.03125
 20
0.1875000000000009
 30
-0.162379763209582
 10
4.760416666666669
 20
-2.104166666666667
 30
-2.219190097197624
 10
6.625000000000004
 20
-3.250000000000001
 30
-3.247595264191646
 11
5.750000000000003
 21
5.500000000000005
 31
1.299038105676658
 11
2.750000000000001
 21
0.5000000000000005
 31
-0.4330127018922198
 11
6.625000000000004
 21
-3.250000000000001
 31
-3.247595264191646
1001
ACAD_OBJECT_CHANGE_GUID
1070
     0
1071
        0
1070
     0
1070
     0
1070
     0
1070
     0
1070
     0
1070
     0
1070
     0
1070
     0
1070
     0
1070
     0
  0
TEXT
  5
20A
330
1F
100
AcDbEntity
  8
0
100
AcDbText
 10
-9.391485505499122
 20
-3.130495168499708
 30
0.0
 40
1.0
  1
Text
 50
153.434948822922
210
-0.2165063509461097
220
0.4330127018922191
230
-0.8750000000000001
100
AcDbText
  0
VIEWPORT
  5
102
102
{ACAD_XDICTIONARY
360
260
102
}
330
23
100
AcDbEntity
 67
     1
  8
0
100
AcDbViewport
 10
128.5
 20
98.14473144822969
 30
0.0
 40
654.7948017621146
 41
223.4694628964594
 68
     1
 69
     1
 12
128.5
 22
98.14473144822969
 13
0.0
 23
0.0
 14
10.0
 24
10.0
 15
10.0
 25
10.0
 16
0.0
 26
0.0
 36
1.0
 17
0.0
 27
0.0
 37
0.0
 42
50.0
 43
0.0
 44
0.0
 45
223.4694628964594
 50
0.0
 51
0.0
 72
  1000
 90
    32800
  1

281
     0
 71
     1
 74
     0
110
0.0
120
0.0
130
0.0
111
1.0
121
0.0
131
0.0
112
0.0
122
1.0
132
0.0
 79
     0
146
0.0
  0
VIEWPORT
  5
104
102
{ACAD_XDICTIONARY
360
262
102
}
330
23
100
AcDbEntity
 67
     1
  8
0
100
AcDbViewport
 10
128.5
 20
97.5
 30
0.0
 40
205.6
 41
156.0
 68
     2
 69
     2
 12
513.4868045686685
 22
175.2385563380282
 13
0.0
 23
0.0
 14
10.0
 24
10.0
 15
10.0
 25
10.0
 16
0.0
 26
0.0
 36
1.0
 17
0.0
 27
0.0
 37
0.0
 42
50.0
 43
0.0
 44
0.0
 45
347.4734376308731
 50
0.0
 51
0.0
 72
  1000
 90
    32880
  1

281
     0
 71
     1
 74
     0
110
0.0
120
0.0
130
0.0
111
1.0
121
0.0
131
0.0
112
0.0
122
1.0
132
0.0
 79
     0
146
0.0
  0
ENDSEC
  0
SECTION
  2
OBJECTS
  0
DICTIONARY
  5
4CC
330
0
100
AcDbDictionary
281
     1
  3
ACAD_GROUP
350
4CD
  0
DICTIONARY
  5
4CD
102
{ACAD_REACTORS
330
4CC
102
}
330
4CC
100
AcDbDictionary
281
     1
  0
ENDSEC
  0
EOF
