  0
SECTION
  2
HEADER
  9
$ACADVER
  1
AC1027
  0
ENDSEC
  0
SECTION
  2
TABLES
  0
TABLE
  2
VPORT
  5
EEEE1
330
0
100
AcDbSymbolTable
 70
     1
  0
VPORT
  5
EEEEB
330
EEEE1
100
AcDbSymbolTableRecord
100
AcDbViewportTableRecord
  2
*ACTIVE
 70
     0
  0
ENDTAB
  0
TABLE
  2
LTYPE
  5
EEEE4
330
0
100
AcDbSymbolTable
 70
     3
  0
LTYPE
  5
51A
330
EEEE4
100
AcDbSymbolTableRecord
100
AcDbLinetypeTableRecord
  2
ByBlock
 70
     0
  3

 72
    65
 73
     0
 40
0.0
  0
LTYPE
  5
51B
330
EEEE4
100
AcDbSymbolTableRecord
100
AcDbLinetypeTableRecord
  2
ByLayer
 70
     0
  3

 72
    65
 73
     0
 40
0.0
  0
ENDTAB
  0
TABLE
  2
LAYER
  5
EEEE8
330
0
100
AcDbSymbolTable
 70
     2
  0
LAYER
  5
EEEF1
330
EEEE8
100
AcDbSymbolTableRecord
100
AcDbLayerTableRecord
  2
0
 70
     0
 62
     7
  6
CONTINUOUS
370
    -3
390
4CF
347
4E1
348
0
  0
LAYER
  5
F04DC
330
EEEE8
100
AcDbSymbolTableRecord
100
AcDbLayerTableRecord
  2
OCS
 70
     0
 62
     1
  6
Continuous
370
    -3
390
4CF
347
4E1
  0
ENDTAB
  0
TABLE
  2
STYLE
  5
EEEE9
330
0
100
AcDbSymbolTable
 70
     3
  0
STYLE
  5
EEEF2
330
EEEE9
100
AcDbSymbolTableRecord
100
AcDbTextStyleTableRecord
  2
STANDARD
 70
     0
 40
0.0
 41
1.0
 50
0.0
 71
     0
 42
0.2
  3
txt
  4

  0
ENDTAB
  0
TABLE
  2
VIEW
  5
EEEE3
100
AcDbSymbolTable
  0
ENDTAB
  0
TABLE
  2
UCS
  5
EEEE2
100
AcDbSymbolTable
  0
ENDTAB
  0
TABLE
  2
APPID
  5
EEEE5
330
0
100
AcDbSymbolTable
 70
    1
  0
APPID
  5
EEEF3
330
EEEE5
100
AcDbSymbolTableRecord
100
AcDbRegAppTableRecord
  2
ACAD
 70
     0
  0
ENDTAB
  0
TABLE
  2
DIMSTYLE
  5
EEEE6
330
0
100
AcDbSymbolTable
 70
     2
100
AcDbDimStyleTable
 71
     0
  0
DIMSTYLE
105
EEEF4
330
EEEE6
100
AcDbSymbolTableRecord
100
AcDbDimStyleTableRecord
  2
STANDARD
 70
     0
279
     2
340
EEEF2
  0
ENDTAB
  0
TABLE
  2
BLOCK_RECORD
  5
EEEE7
330
0
100
AcDbSymbolTable
 70
     3
  0
BLOCK_RECORD
  5
EEEEE
330
EEEE7
100
AcDbSymbolTableRecord
100
AcDbBlockTableRecord
  2
*Model_Space
340
EEEEA
 70
     0
280
     1
281
     0
  0
BLOCK_RECORD
  5
EEEF6
330
EEEE7
100
AcDbSymbolTableRecord
100
AcDbBlockTableRecord
  2
*Paper_Space
340
EEEF5
 70
     0
280
     1
281
     0
  0
BLOCK_RECORD
  5
EF342
102
{ACAD_XDICTIONARY
360
EF355
102
}
330
EEEE7
100
AcDbSymbolTableRecord
100
AcDbBlockTableRecord
  2
theblock
340
0
102
{BLKREFS
331
EF361
331
EF362
102
}
 70
     0
280
     1
281
     0
  0
ENDTAB
  0
ENDSEC
  0
SECTION
  2
BLOCKS
  0
BLOCK
  5
EEEED
330
EEEEE
100
AcDbEntity
  8
0
100
AcDbBlockBegin
  2
*Model_Space
 70
     0
 10
0.0
 20
0.0
 30
0.0
  3
*Model_Space
  1

  0
ENDBLK
  5
EEEEC
330
EEEEE
100
AcDbEntity
  8
0
100
AcDbBlockEnd
  0
BLOCK
  5
EEEF7
330
EEEF6
100
AcDbEntity
 67
     1
  8
0
100
AcDbBlockBegin
  2
*Paper_Space
 70
     0
 10
0.0
 20
0.0
 30
0.0
  3
*Paper_Space
  1

  0
ENDBLK
  5
EEEF8
330
EEEF6
100
AcDbEntity
 67
     1
  8
0
100
AcDbBlockEnd
  0
BLOCK
  5
EF343
330
EF342
100
AcDbEntity
  8
0
100
AcDbBlockBegin
  2
theblock
 70
     0
 10
0.0
 20
0.0
 30
0.0
  3
theblock
  1

  0
LWPOLYLINE
  5
EF354
330
EF342
100
AcDbEntity
  8
0
  6
Continuous
100
AcDbPolyline
 90
        4
 70
     1
 43
0.0
 10
0.0
 20
0.0
 10
20.0
 20
0.0
 10
20.0
 20
20.0
 10
0.0
 20
20.0
  0
ENDBLK
  5
EF344
330
EF342
100
AcDbEntity
  8
0
100
AcDbBlockEnd
  0
ENDSEC
  0
SECTION
  2
ENTITIES
  0
INSERT
  5
EE361
330
EEEEE
100
AcDbEntity
  8
0
  6
Continuous
100
AcDbBlockReference
  2
theblock
 10
50.0
 20
20.0
 30
0.0
  0
INSERT
  5
EE362
330
EEEEE
100
AcDbEntity
  8
0
  6
Continuous
100
AcDbBlockReference
  2
theblock
 10
-45.0
 20
20.0
 30
0.000000002257828
210
0.0
220
0.0
230
-1.0
  0
INSERT
  5
EF361
330
EEEEE
100
AcDbEntity
  8
0
  6
Continuous
100
AcDbBlockReference
  2
theblock
 10
-10.0
 20
15.0
 30
123.0
  0
INSERT
  5
EF362
330
EEEEE
100
AcDbEntity
  8
OCS
  6
Continuous
100
AcDbBlockReference
  2
theblock
 10
-10.0
 20
-41.27207793864214
 30
66.72792206135787
210
0.0
220
0.7071067811865476
230
-0.7071067811865476
  0
INSERT
  5
EFA01
330
EEEEE
100
AcDbEntity
  8
0
100
AcDbBlockReference
  2
theblock
 10
-49.9999994
 20
49.99999939999999
 30
60.0000009
 42
2.0
 50
45.0
  0
INSERT
  5
EFA02
330
EEEEE
100
AcDbEntity
  8
OCS
100
AcDbBlockReference
  2
theblock
 10
-49.9999994
 20
49.99999939999999
 30
60.0000009
 42
2.0
 50
45.0
210
0.600000000033424
220
0.5656854249315125
230
0.5656854249315125
  0
HATCH
  5
EF7F1
330
EEEEE
100
AcDbEntity
  8
0
  6
Continuous
100
AcDbHatch
 10
0.0
 20
0.0
 30
123.0
210
0.0
220
0.0
230
1.0
  2
SOLID
 70
     1
 71
     0
 91
        1
 92
        5
 93
        3
 72
     3
 10
-5.0
 20
44.0
 11
6.0
 21
0.0
 40
0.6666666666666666
 50
270.0
 51
369.7667598403904
 73
     1
 72
     1
 10
0.8094750192831304
 20
45.0
 11
-10.0
 21
45.0
 72
     2
 10
-5.0
 20
45.0
 40
5.0
 50
180.0
 51
270.0
 73
     1
 97
        0
 75
     1
 76
     1
 47
0.1166411968105537
 98
        1
 10
-4.0
 20
42.0
450
        0
451
        0
460
0.0
461
0.0
452
        0
462
0.0
453
        0
470

  0
HATCH
  5
EF8F1
330
EEEEE
100
AcDbEntity
  8
OCS
  6
Continuous
100
AcDbHatch
 10
0.0
 20
0.0
 30
123.0
210
0.0
220
0.7071067811865476
230
-0.7071067811865476
  2
SOLID
 70
     1
 71
     0
 91
        1
 92
        5
 93
        3
 72
     3
 10
4.0
 20
-60.99999999999997
 11
6.0
 21
0.0
 40
0.6666666666666666
 50
270.0
 51
369.7667598403904
 73
     1
 72
     1
 10
9.80947501928313
 20
-59.99999999999999
 11
-1.0
 21
-59.99999999999999
 72
     2
 10
4.0
 20
-59.99999999999999
 40
5.0
 50
180.0
 51
270.0
 73
     1
 97
        0
 75
     1
 76
     1
 47
0.1166411968105537
 98
        1
 10
5.0
 20
-62.99999999999998
450
        0
451
        0
460
0.0
461
0.0
452
        0
462
0.0
453
        0
470

  0
SOLID
  5
EF7F4
330
EEEEE
100
AcDbEntity
  8
0
  6
Continuous
100
AcDbTrace
 10
-10.0
 20
13.0
 30
123.0
 11
10.0
 21
10.0
 31
123.0
 12
8.0
 22
13.0
 32
123.0
 13
5.0
 23
12.0
 33
123.0
  0
SOLID
  5
EF8F4
330
EEEEE
100
AcDbEntity
  8
OCS
  6
Continuous
100
AcDbTrace
 10
10.0
 20
96.87362902255705
 30
-78.48885271170678
 11
-8.0
 21
96.87362902255703
 31
-78.48885271170678
 12
-10.0
 22
92.63098833543773
 32
-78.48885271170678
 13
-5.0
 23
95.45941546018392
 33
-78.48885271170678
210
0.0
220
0.7071067811865476
230
-0.7071067811865476
  0
ENDSEC
  0
SECTION
  2
OBJECTS
  0
DICTIONARY
  5
4CC
330
0
100
AcDbDictionary
281
     1
  3
ACAD_GROUP
350
4CD
  0
DICTIONARY
  5
4CD
102
{ACAD_REACTORS
330
4CC
102
}
330
4CC
100
AcDbDictionary
281
     1
  0
ENDSEC
  0
EOF
